  0
SECTION
  2
HEADER
  9
$ACADVER
  1
AC1015
  9
$ACADMAINTVER
 70
     6
  9
$DWGCODEPAGE
  3
ANSI_1252
  9
$INSBASE
 10
0.0
 20
0.0
 30
0.0
  9
$EXTMIN
 10
-42.6483979177
 20
-48.7840762579
 30
0.0
  9
$EXTMAX
 10
78.8545088789
 20
29.4309861395
 30
0.0
  9
$LIMMIN
 10
0.0
 20
0.0
  9
$LIMMAX
 10
420.0
 20
297.0
  9
$ORTHOMODE
 70
     0
  9
$REGENMODE
 70
     1
  9
$FILLMODE
 70
     1
  9
$QTEXTMODE
 70
     0
  9
$MIRRTEXT
 70
     1
  9
$LTSCALE
 40
1.0
  9
$ATTMODE
 70
     1
  9
$TEXTSIZE
 40
3.5
  9
$TRACEWID
 40
1.0
  9
$TEXTSTYLE
  7
Standard
  9
$CLAYER
  8
0
  9
$CELTYPE
  6
ByLayer
  9
$CECOLOR
 62
   256
  9
$CELTSCALE
 40
1.0
  9
$DISPSILH
 70
     0
  9
$DIMSCALE
 40
1.0
  9
$DIMASZ
 40
3.302
  9
$DIMEXO
 40
1.0
  9
$DIMDLI
 40
3.75
  9
$DIMRND
 40
0.0
  9
$DIMDLE
 40
0.0
  9
$DIMEXE
 40
1.0
  9
$DIMTP
 40
0.0
  9
$DIMTM
 40
0.0
  9
$DIMTXT
 40
3.5
  9
$DIMCEN
 40
2.5
  9
$DIMTSZ
 40
0.0
  9
$DIMTOL
 70
     0
  9
$DIMLIM
 70
     0
  9
$DIMTIH
 70
     1
  9
$DIMTOH
 70
     1
  9
$DIMSE1
 70
     0
  9
$DIMSE2
 70
     0
  9
$DIMTAD
 70
     1
  9
$DIMZIN
 70
     1
  9
$DIMBLK
  1

  9
$DIMASO
 70
     1
  9
$DIMSHO
 70
     1
  9
$DIMPOST
  1

  9
$DIMAPOST
  1

  9
$DIMALT
 70
     0
  9
$DIMALTD
 70
     3
  9
$DIMALTF
 40
0.0393700787
  9
$DIMLFAC
 40
1.0
  9
$DIMTOFL
 70
     1
  9
$DIMTVP
 40
0.0
  9
$DIMTIX
 70
     0
  9
$DIMSOXD
 70
     0
  9
$DIMSAH
 70
     0
  9
$DIMBLK1
  1

  9
$DIMBLK2
  1

  9
$DIMSTYLE
  2
ISO-25
  9
$DIMCLRD
 70
     0
  9
$DIMCLRE
 70
     0
  9
$DIMCLRT
 70
     0
  9
$DIMTFAC
 40
1.0
  9
$DIMGAP
 40
1.524
  9
$DIMJUST
 70
     0
  9
$DIMSD1
 70
     0
  9
$DIMSD2
 70
     0
  9
$DIMTOLJ
 70
     0
  9
$DIMTZIN
 70
     1
  9
$DIMALTZ
 70
     0
  9
$DIMALTTZ
 70
     0
  9
$DIMUPT
 70
     0
  9
$DIMDEC
 70
     2
  9
$DIMTDEC
 70
     2
  9
$DIMALTU
 70
     2
  9
$DIMALTTD
 70
     3
  9
$DIMTXSTY
  7
Standard
  9
$DIMAUNIT
 70
     0
  9
$DIMADEC
 70
     2
  9
$DIMALTRND
 40
0.0
  9
$DIMAZIN
 70
     0
  9
$DIMDSEP
 70
    44
  9
$DIMATFIT
 70
     3
  9
$DIMFRAC
 70
     0
  9
$DIMLDRBLK
  1

  9
$DIMLUNIT
 70
     2
  9
$DIMLWD
 70
    -2
  9
$DIMLWE
 70
    -2
  9
$DIMTMOVE
 70
     0
  9
$LUNITS
 70
     2
  9
$LUPREC
 70
     2
  9
$SKETCHINC
 40
1.0
  9
$FILLETRAD
 40
10.0
  9
$AUNITS
 70
     0
  9
$AUPREC
 70
     2
  9
$MENU
  1
.
  9
$ELEVATION
 40
0.0
  9
$PELEVATION
 40
0.0
  9
$THICKNESS
 40
0.0
  9
$LIMCHECK
 70
     0
  9
$CHAMFERA
 40
0.0
  9
$CHAMFERB
 40
0.0
  9
$CHAMFERC
 40
0.0
  9
$CHAMFERD
 40
0.0
  9
$SKPOLY
 70
     0
  9
$TDCREATE
 40
2458691.796854676
  9
$TDUCREATE
 40
2458691.567688009
  9
$TDUPDATE
 40
2458691.79686963
  9
$TDUUPDATE
 40
2458691.567702963
  9
$TDINDWG
 40
0.0000000116
  9
$TDUSRTIMER
 40
0.0000000116
  9
$USRTIMER
 70
     1
  9
$ANGBASE
 50
0.0
  9
$ANGDIR
 70
     0
  9
$PDMODE
 70
     0
  9
$PDSIZE
 40
-1.0
  9
$PLINEWID
 40
0.0
  9
$SPLFRAME
 70
     0
  9
$SPLINETYPE
 70
     6
  9
$SPLINESEGS
 70
     8
  9
$HANDSEED
  5
C3
  9
$SURFTAB1
 70
     6
  9
$SURFTAB2
 70
     6
  9
$SURFTYPE
 70
     6
  9
$SURFU
 70
     6
  9
$SURFV
 70
     6
  9
$UCSBASE
  2

  9
$UCSNAME
  2

  9
$UCSORG
 10
0.0
 20
0.0
 30
0.0
  9
$UCSXDIR
 10
1.0
 20
0.0
 30
0.0
  9
$UCSYDIR
 10
0.0
 20
1.0
 30
0.0
  9
$UCSORTHOREF
  2

  9
$UCSORTHOVIEW
 70
     0
  9
$UCSORGTOP
 10
0.0
 20
0.0
 30
0.0
  9
$UCSORGBOTTOM
 10
0.0
 20
0.0
 30
0.0
  9
$UCSORGLEFT
 10
0.0
 20
0.0
 30
0.0
  9
$UCSORGRIGHT
 10
0.0
 20
0.0
 30
0.0
  9
$UCSORGFRONT
 10
0.0
 20
0.0
 30
0.0
  9
$UCSORGBACK
 10
0.0
 20
0.0
 30
0.0
  9
$PUCSBASE
  2

  9
$PUCSNAME
  2

  9
$PUCSORG
 10
0.0
 20
0.0
 30
0.0
  9
$PUCSXDIR
 10
1.0
 20
0.0
 30
0.0
  9
$PUCSYDIR
 10
0.0
 20
1.0
 30
0.0
  9
$PUCSORTHOREF
  2

  9
$PUCSORTHOVIEW
 70
     0
  9
$PUCSORGTOP
 10
0.0
 20
0.0
 30
0.0
  9
$PUCSORGBOTTOM
 10
0.0
 20
0.0
 30
0.0
  9
$PUCSORGLEFT
 10
0.0
 20
0.0
 30
0.0
  9
$PUCSORGRIGHT
 10
0.0
 20
0.0
 30
0.0
  9
$PUCSORGFRONT
 10
0.0
 20
0.0
 30
0.0
  9
$PUCSORGBACK
 10
0.0
 20
0.0
 30
0.0
  9
$USERI1
 70
     0
  9
$USERI2
 70
     0
  9
$USERI3
 70
     0
  9
$USERI4
 70
     0
  9
$USERI5
 70
     0
  9
$USERR1
 40
0.0
  9
$USERR2
 40
0.0
  9
$USERR3
 40
0.0
  9
$USERR4
 40
0.0
  9
$USERR5
 40
0.0
  9
$WORLDVIEW
 70
     1
  9
$SHADEDGE
 70
     3
  9
$SHADEDIF
 70
    70
  9
$TILEMODE
 70
     1
  9
$MAXACTVP
 70
    64
  9
$PINSBASE
 10
0.0
 20
0.0
 30
0.0
  9
$PLIMCHECK
 70
     0
  9
$PEXTMIN
 10
1.0000000000E+20
 20
1.0000000000E+20
 30
1.0000000000E+20
  9
$PEXTMAX
 10
-1.0000000000E+20
 20
-1.0000000000E+20
 30
-1.0000000000E+20
  9
$PLIMMIN
 10
0.0
 20
0.0
  9
$PLIMMAX
 10
420.0
 20
297.0
  9
$UNITMODE
 70
     0
  9
$VISRETAIN
 70
     1
  9
$PLINEGEN
 70
     0
  9
$PSLTSCALE
 70
     1
  9
$TREEDEPTH
 70
  3020
  9
$CMLSTYLE
  2
Standard
  9
$CMLJUST
 70
     0
  9
$CMLSCALE
 40
20.0
  9
$PROXYGRAPHICS
 70
     1
  9
$MEASUREMENT
 70
     1
  9
$CELWEIGHT
370
    -1
  9
$ENDCAPS
280
     0
  9
$JOINSTYLE
280
     0
  9
$LWDISPLAY
290
     1
  9
$INSUNITS
 70
     4
  9
$HYPERLINKBASE
  1

  9
$STYLESHEET
  1

  9
$XEDIT
290
     1
  9
$CEPSNTYPE
380
     0
  9
$PSTYLEMODE
290
     1
  9
$FINGERPRINTGUID
  2
{62879BC6-5A3E-45DC-8465-20A9A5FA9313}
  9
$VERSIONGUID
  2
{FAEB1C32-E019-11D5-929B-00C0DF256EC4}
  9
$EXTNAMES
290
     1
  9
$PSVPSCALE
 40
0.0
  9
$OLESTARTUP
290
     0
  0
ENDSEC
  0
SECTION
  2
CLASSES
  0
CLASS
  1
ACDBDICTIONARYWDFLT
  2
AcDbDictionaryWithDefault
  3
ObjectDBX Classes
 90
        0
280
     0
281
     0
  0
CLASS
  1
VISUALSTYLE
  2
AcDbVisualStyle
  3
ObjectDBX Classes
 90
     4095
280
     0
281
     0
  0
CLASS
  1
MATERIAL
  2
AcDbMaterial
  3
ObjectDBX Classes
 90
     1153
280
     0
281
     0
  0
CLASS
  1
SCALE
  2
AcDbScale
  3
ObjectDBX Classes
 90
     1153
280
     0
281
     0
  0
CLASS
  1
TABLESTYLE
  2
AcDbTableStyle
  3
ObjectDBX Classes
 90
     4095
280
     0
281
     0
  0
CLASS
  1
MLEADERSTYLE
  2
AcDbMLeaderStyle
  3
ACDB_MLEADERSTYLE_CLASS
 90
     4095
280
     0
281
     0
  0
CLASS
  1
SUN
  2
AcDbSun
  3
SCENEOE
 90
     1153
280
     0
281
     0
  0
CLASS
  1
ACDBPLACEHOLDER
  2
AcDbPlaceHolder
  3
ObjectDBX Classes
 90
        0
280
     0
281
     0
  0
CLASS
  1
LAYOUT
  2
AcDbLayout
  3
ObjectDBX Classes
 90
        0
280
     0
281
     0
  0
ENDSEC
  0
SECTION
  2
TABLES
  0
TABLE
  2
VPORT
  5
8
330
0
100
AcDbSymbolTable
 70
     1
  0
VPORT
  5
29
330
8
100
AcDbSymbolTableRecord
100
AcDbViewportTableRecord
  2
*Active
 70
     0
 10
0.0
 20
0.0
 11
1.0
 21
1.0
 12
18.1030554806
 22
-9.6765450592
 13
0.0
 23
0.0
 14
10.0
 24
10.0
 15
10.0
 25
10.0
 16
0.0
 26
0.0
 36
1.0
 17
0.0
 27
0.0
 37
0.0
 40
79.7793636454
 41
1.553446396
 42
50.0
 43
0.0
 44
0.0
 50
0.0
 51
0.0
 71
     0
 72
   100
 73
     1
 74
     3
 75
     0
 76
     0
 77
     0
 78
     0
281
     0
 65
     1
110
0.0
120
0.0
130
0.0
111
1.0
121
0.0
131
0.0
112
0.0
122
1.0
132
0.0
 79
     0
146
0.0
  0
ENDTAB
  0
TABLE
  2
LTYPE
  5
5
330
0
100
AcDbSymbolTable
 70
     6
  0
LTYPE
  5
14
330
5
100
AcDbSymbolTableRecord
100
AcDbLinetypeTableRecord
  2
ByBlock
 70
     0
  3

 72
    65
 73
     0
 40
0.0
  0
LTYPE
  5
15
330
5
100
AcDbSymbolTableRecord
100
AcDbLinetypeTableRecord
  2
ByLayer
 70
     0
  3

 72
    65
 73
     0
 40
0.0
  0
LTYPE
  5
16
330
5
100
AcDbSymbolTableRecord
100
AcDbLinetypeTableRecord
  2
Continuous
 70
     0
  3
Solid line
 72
    65
 73
     0
 40
0.0
  0
LTYPE
  5
6E
330
5
100
AcDbSymbolTableRecord
100
AcDbLinetypeTableRecord
  2
HIDDEN
 70
     0
  3
Hidden __ __ __ __ __ __ __ __ __ __ __ __ __ __
 72
    65
 73
     2
 40
1.905
 49
1.27
 74
     0
 49
-0.635
 74
     0
  0
LTYPE
  5
6F
330
5
100
AcDbSymbolTableRecord
100
AcDbLinetypeTableRecord
  2
PHANTOM
 70
     0
  3
Phantom ______  __  __  ______  __  __  ______
 72
    65
 73
     6
 40
12.7
 49
6.35
 74
     0
 49
-1.27
 74
     0
 49
1.27
 74
     0
 49
-1.27
 74
     0
 49
1.27
 74
     0
 49
-1.27
 74
     0
  0
LTYPE
  5
70
330
5
100
AcDbSymbolTableRecord
100
AcDbLinetypeTableRecord
  2
CENTER
 70
     0
  3
Center ____ _ ____ _ ____ _ ____ _ ____ _ ____
 72
    65
 73
     4
 40
10.16
 49
6.35
 74
     0
 49
-1.27
 74
     0
 49
1.27
 74
     0
 49
-1.27
 74
     0
  0
LTYPE
  5
71
330
5
100
AcDbSymbolTableRecord
100
AcDbLinetypeTableRecord
  2
CENTERX2
 70
     0
  3
Center (2x) ________  __  ________  __  _____
 72
    65
 73
     4
 40
20.32
 49
12.7
 74
     0
 49
-2.54
 74
     0
 49
2.54
 74
     0
 49
-2.54
 74
     0
  0
LTYPE
  5
72
330
5
100
AcDbSymbolTableRecord
100
AcDbLinetypeTableRecord
  2
DOT2
 70
     0
  3
Dot (.5x) ........................................
 72
    65
 73
     2
 40
0.635
 49
0.0
 74
     0
 49
-0.635
 74
     0
  0
ENDTAB
  0
TABLE
  2
LAYER
  5
2
330
0
100
AcDbSymbolTable
 70
     1
  0
LAYER
  5
10
330
2
100
AcDbSymbolTableRecord
100
AcDbLayerTableRecord
  2
0
 70
     0
 62
     7
  6
Continuous
370
    -3
390
F
  0
ENDTAB
  0
TABLE
  2
STYLE
  5
3
330
0
100
AcDbSymbolTable
 70
     1
  0
STYLE
  5
11
330
3
100
AcDbSymbolTableRecord
100
AcDbTextStyleTableRecord
  2
Standard
 70
     0
 40
0.0
 41
1.0
 50
0.0
 71
     0
 42
3.5
  3
txt
  4

  0
ENDTAB
  0
TABLE
  2
VIEW
  5
6
330
0
100
AcDbSymbolTable
 70
     0
  0
ENDTAB
  0
TABLE
  2
UCS
  5
7
330
0
100
AcDbSymbolTable
 70
     0
  0
ENDTAB
  0
TABLE
  2
APPID
  5
9
330
0
100
AcDbSymbolTable
 70
     1
  0
APPID
  5
12
330
9
100
AcDbSymbolTableRecord
100
AcDbRegAppTableRecord
  2
ACAD
 70
     0
  0
ENDTAB
  0
TABLE
  2
DIMSTYLE
  5
A
330
0
100
AcDbSymbolTable
 70
     1
100
AcDbDimStyleTable
  0
DIMSTYLE
105
27
330
A
100
AcDbSymbolTableRecord
100
AcDbDimStyleTableRecord
  2
ISO-25
 70
     0
 41
2.5
 42
0.625
 43
3.75
 44
1.25
 73
     0
 74
     0
 77
     1
 78
     8
140
2.5
141
2.5
143
0.0393700787
147
0.625
171
     3
172
     1
178
     0
271
     2
272
     2
274
     3
278
    44
283
     0
284
     8
340
11
  0
ENDTAB
  0
TABLE
  2
BLOCK_RECORD
  5
1
330
0
100
AcDbSymbolTable
 70
     1
  0
BLOCK_RECORD
  5
1F
330
1
100
AcDbSymbolTableRecord
100
AcDbBlockTableRecord
  2
*Model_Space
340
22
  0
BLOCK_RECORD
  5
1B
330
1
100
AcDbSymbolTableRecord
100
AcDbBlockTableRecord
  2
*Paper_Space
340
1E
  0
BLOCK_RECORD
  5
23
330
1
100
AcDbSymbolTableRecord
100
AcDbBlockTableRecord
  2
*Paper_Space0
340
26
  0
ENDTAB
  0
ENDSEC
  0
SECTION
  2
BLOCKS
  0
BLOCK
  5
20
330
1F
100
AcDbEntity
  8
0
100
AcDbBlockBegin
  2
*Model_Space
 70
     0
 10
0.0
 20
0.0
 30
0.0
  3
*Model_Space
  1

  0
ENDBLK
  5
21
330
1F
100
AcDbEntity
  8
0
100
AcDbBlockEnd
  0
BLOCK
  5
1C
330
1B
100
AcDbEntity
 67
     1
  8
0
100
AcDbBlockBegin
  2
*Paper_Space
 70
     0
 10
0.0
 20
0.0
 30
0.0
  3
*Paper_Space
  1

  0
ENDBLK
  5
1D
330
1B
100
AcDbEntity
 67
     1
  8
0
100
AcDbBlockEnd
  0
BLOCK
  5
24
330
23
100
AcDbEntity
  8
0
100
AcDbBlockBegin
  2
*Paper_Space0
 70
     0
 10
0.0
 20
0.0
 30
0.0
  3
*Paper_Space0
  1

  0
ENDBLK
  5
25
330
23
100
AcDbEntity
  8
0
100
AcDbBlockEnd
  0
ENDSEC
  0
SECTION
  2
ENTITIES
  0
LWPOLYLINE
  5
73
330
1F
100
AcDbEntity
  8
0
  6
Continuous
 62
     7
370
    25
100
AcDbPolyline
 90
       17
 70
   128
 43
0.0
 10
-29.0729971864
 20
-35.8001975393
 10
-29.202416363
 20
-35.8681230915
 10
-29.7612966713
 20
-36.2675263574
 10
-30.2675973336
 20
-36.7475363752
 10
-30.7118986707
 20
-37.304560965
 10
-31.0856538358
 20
-37.9359000392
 10
-31.3517334359
 20
-38.5584889793
 10
-31.5449970548
 20
-39.223472856
 10
-31.6622080958
 20
-39.9242278985
 10
-31.7012095841
 20
-40.6505278634
 10
-31.6629167183
 20
-41.3858212943
 10
-31.5540926486
 20
-42.1068296154
 10
-31.3904915316
 20
-42.7811843142
 10
-31.1907617122
 20
-43.3922184713
 10
-31.0203934297
 20
-43.821750673
 10
-30.8106176133
 20
-44.2791827578
 10
-30.5150325419
 20
-44.8329587482
  0
LWPOLYLINE
  5
74
330
1F
100
AcDbEntity
  8
0
  6
Continuous
 62
     7
370
    25
100
AcDbPolyline
 90
       17
 70
   128
 43
0.0
 10
-30.5150325419
 20
-44.8329587482
 10
-30.0520324438
 20
-45.5566832847
 10
-29.8495469365
 20
-45.8324367762
 10
-29.492224781
 20
-46.2715929583
 10
-29.0960959407
 20
-46.6988284635
 10
-28.6428634655
 20
-47.1230944474
 10
-28.1397919519
 20
-47.5247475295
 10
-27.590060256
 20
-47.8905713005
 10
-27.0003761137
 20
-48.2069001335
 10
-26.378511347
 20
-48.4622647887
 10
-25.7332275201
 20
-48.6475767389
 10
-25.0730606091
 20
-48.7563547758
 10
-24.4062421496
 20
-48.7840762579
 10
-23.7413039314
 20
-48.7275850488
 10
-23.0875332844
 20
-48.5849461696
 10
-22.4549638399
 20
-48.3555468276
 10
-21.9828633352
 20
-48.1077652521
  0
LWPOLYLINE
  5
77
330
1F
100
AcDbEntity
  8
0
  6
Continuous
 62
     7
370
    25
100
AcDbPolyline
 90
        8
 70
   128
 43
0.0
 10
-17.0883097292
 20
-44.8716879116
 10
-17.0896762887
 20
-44.8762668128
 10
-17.067379832
 20
-44.8252093445
 10
-17.0039040049
 20
-44.7088058619
 10
-16.8836953371
 20
-44.5331020301
 10
-16.6891685889
 20
-44.3082126559
 10
-16.4022804296
 20
-44.0515039578
 10
-16.0529147854
 20
-43.8202171349
  0
LWPOLYLINE
  5
7F
330
1F
100
AcDbEntity
  8
0
  6
Continuous
 62
     7
370
    25
100
AcDbPolyline
 90
       15
 70
   128
 43
0.0
 10
-22.6738617009
 20
-23.0920199659
 10
-23.0287313165
 20
-22.8908740832
 10
-23.8334727689
 20
-22.3275060914
 10
-24.5656281415
 20
-21.7029947277
 10
-25.2061407944
 20
-21.0419900715
 10
-25.7416036821
 20
-20.3745625988
 10
-26.1230943051
 20
-19.80463719
 10
-26.4147568198
 20
-19.2859422827
 10
-26.6271359649
 20
-18.8334315726
 10
-26.7731511338
 20
-18.4566084187
 10
-26.866206898
 20
-18.1607053735
 10
-26.9190790605
 20
-17.948026769
 10
-26.9434310562
 20
-17.8190645936
 10
-26.9497237521
 20
-17.7732634611
 10
-26.949583813
 20
-17.7753683633
  0
LWPOLYLINE
  5
80
330
1F
100
AcDbEntity
  8
0
  6
Continuous
 62
     7
370
    25
100
AcDbPolyline
 90
       15
 70
   128
 43
0.0
 10
-33.9935183889
 20
-29.9842151087
 10
-33.9978031011
 20
-29.9863173841
 10
-33.9386117808
 20
-29.9628506721
 10
-33.8010125724
 20
-29.9163343094
 10
-33.5795715149
 20
-29.8551713769
 10
-33.2691243963
 20
-29.7892619519
 10
-32.8652797742
 20
-29.7302756456
 10
-32.3653107416
 20
-29.6918372383
 10
-31.7694987258
 20
-29.6894326349
 10
-31.0828343534
 20
-29.7397671893
 10
-30.3166461916
 20
-29.8593385946
 10
-29.4893471891
 20
-30.062266815
 10
-28.6255152607
 20
-30.3579291072
 10
-27.7533360526
 20
-30.7492465937
 10
-27.2567712834
 20
-31.0307075991
  0
LWPOLYLINE
  5
84
330
1F
100
AcDbEntity
  8
0
  6
Continuous
 62
     7
370
    25
100
AcDbPolyline
 90
        8
 70
   128
 43
0.0
 10
64.2346543648
 20
17.6546824837
 10
64.2360209243
 20
17.6592613849
 10
64.2137244676
 20
17.6082039166
 10
64.1502486405
 20
17.491800434
 10
64.0300399727
 20
17.3160966023
 10
63.8355132246
 20
17.091207228
 10
63.5486250653
 20
16.8344985299
 10
63.1984289315
 20
16.6026619069
  0
LWPOLYLINE
  5
89
330
1F
100
AcDbEntity
  8
0
  6
Continuous
 62
     7
370
    25
100
AcDbPolyline
 90
       15
 70
   128
 43
0.0
 10
49.1686101206
 20
18.3812724348
 10
48.813317652
 20
18.5826579974
 10
48.0085761997
 20
19.1460259892
 10
47.276420827
 20
19.7705373529
 10
46.6359081741
 20
20.431542009
 10
46.1004452864
 20
21.0989694818
 10
45.7189546635
 20
21.6688948906
 10
45.4272921487
 20
22.1875897979
 10
45.2149130036
 20
22.640100508
 10
45.0688978348
 20
23.0169236619
 10
44.9758420706
 20
23.3128267071
 10
44.922969908
 20
23.5255053116
 10
44.8986179124
 20
23.654467487
 10
44.8923252164
 20
23.7002686195
 10
44.8924651556
 20
23.6981637173
  0
LWPOLYLINE
  5
8A
330
1F
100
AcDbEntity
  8
0
  6
Continuous
 62
     7
370
    25
100
AcDbPolyline
 90
       15
 70
   128
 43
0.0
 10
37.8485305796
 20
11.4893169719
 10
37.8442458675
 20
11.4872146965
 10
37.9034371878
 20
11.5106814085
 10
38.0410363961
 20
11.5571977712
 10
38.2624774536
 20
11.6183607037
 10
38.5729245723
 20
11.6842701287
 10
38.9767691944
 20
11.743256435
 10
39.4767382269
 20
11.7816948423
 10
40.0725502427
 20
11.7840994457
 10
40.7592146152
 20
11.7337648913
 10
41.525402777
 20
11.614193486
 10
42.3527017795
 20
11.4112652655
 10
43.2165337079
 20
11.1156029734
 10
44.0887129159
 20
10.7242854869
 10
44.5861582072
 20
10.4423253872
  0
LWPOLYLINE
  5
8F
330
1F
100
AcDbEntity
  8
0
  6
Continuous
 62
     7
370
    25
100
AcDbPolyline
 90
       43
 70
   128
 43
0.0
 10
-28.0633003783
 20
-39.5288282803
 10
-27.5613862322
 20
-39.86201156
 10
-27.0706840186
 20
-40.2746208971
 10
-26.6021552143
 20
-40.7574392808
 10
-26.1662659785
 20
-41.2996813462
 10
-25.7727533564
 20
-41.8892343017
 10
-25.4304077698
 20
-42.5129285083
 10
-25.1468766533
 20
-43.1568316682
 10
-24.9284936236
 20
-43.8065600488
 10
-24.7801369967
 20
-44.4475997917
 10
-24.7051208145
 20
-45.0656311283
 10
-24.7051208145
 20
-45.6468482598
 10
-24.7801369967
 20
-46.178267756
 10
-24.9284936236
 20
-46.6480185834
 10
-25.1468766533
 20
-47.0456072849
 10
-25.4304077698
 20
-47.3621523857
 10
-25.7727533564
 20
-47.5905827915
 10
-26.1662659785
 20
-47.7257957444
 10
-26.6021552143
 20
-47.7647708105
 10
-27.0706840186
 20
-47.7066373512
 10
-27.5613862322
 20
-47.552693972
 10
-28.0633003783
 20
-47.3063795135
 10
-28.5652145245
 20
-46.9731962337
 10
-29.055916738
 20
-46.5605868966
 10
-29.5244455424
 20
-46.0777685129
 10
-29.9603347782
 20
-45.5355264475
 10
-30.3538474002
 20
-44.945973492
 10
-30.6961929869
 20
-44.3222792854
 10
-30.9797241033
 20
-43.6783761255
 10
-31.198107133
 20
-43.0286477449
 10
-31.34646376
 20
-42.387608002
 10
-31.4214799422
 20
-41.7695766655
 10
-31.4214799422
 20
-41.1883595339
 10
-31.34646376
 20
-40.6569400377
 10
-31.198107133
 20
-40.1871892103
 10
-30.9797241033
 20
-39.7896005089
 10
-30.6961929869
 20
-39.4730554081
 10
-30.3538474002
 20
-39.2446250023
 10
-29.9603347782
 20
-39.1094120494
 10
-29.5244455424
 20
-39.0704369833
 10
-29.055916738
 20
-39.1285704426
 10
-28.5652145245
 20
-39.2825138218
 10
-28.0633003783
 20
-39.5288282803
  0
LWPOLYLINE
  5
90
330
1F
100
AcDbEntity
  8
0
  6
Continuous
 62
     7
370
    25
100
AcDbPolyline
 90
       26
 70
   128
 43
0.0
 10
-24.7944871503
 20
-35.0492654929
 10
-24.1428970861
 20
-35.4692446128
 10
-23.5001186597
 20
-35.9711926007
 10
-22.8748443468
 20
-36.5483214712
 10
-22.2755299096
 20
-37.1928265464
 10
-21.7102800478
 20
-37.8959920006
 10
-21.1867387963
 20
-38.6483087275
 10
-20.7119861521
 20
-39.4396029339
 10
-20.2924423305
 20
-40.2591737231
 10
-19.9337809419
 20
-41.0959378062
 10
-19.6408522663
 20
-41.9385793843
 10
-19.4176176616
 20
-42.7757031756
 10
-19.2670959927
 20
-43.595988517
 10
-19.1913228071
 20
-44.3883424565
 10
-19.1913228071
 20
-45.1420497661
 10
-19.2670959927
 20
-45.8469178476
 10
-19.4176176616
 20
-46.4934145694
 10
-19.6408522663
 20
-47.0727971723
 10
-19.9337809419
 20
-47.5772305005
 10
-20.2924423305
 20
-47.9998929587
 10
-20.7119861521
 20
-48.3350687621
 10
-21.1867387963
 20
-48.578225233
 10
-21.7102800478
 20
-48.7260740973
 10
-22.2755299096
 20
-48.7766159527
 10
-22.8748443468
 20
-48.7291673073
 10
-23.2160954202
 20
-48.6614737921
  0
LWPOLYLINE
  5
91
330
1F
100
AcDbEntity
  8
0
  6
Continuous
 62
     7
370
    25
100
AcDbPolyline
 90
       13
 70
   128
 43
0.0
 10
-30.1882220736
 20
-36.6243043406
 10
-30.171356639
 20
-36.567701805
 10
-29.9481220342
 20
-35.9883192021
 10
-29.6551933586
 20
-35.4838858739
 10
-29.29653197
 20
-35.0612234157
 10
-28.8769881484
 20
-34.7260476123
 10
-28.4022355043
 20
-34.4828911414
 10
-27.8786942527
 20
-34.3350422771
 10
-27.313444391
 20
-34.2845004217
 10
-26.7141299538
 20
-34.3319490671
 10
-26.0888556408
 20
-34.4767465518
 10
-25.4460772145
 20
-34.7169347381
 10
-24.7944871503
 20
-35.0492654929
  0
LWPOLYLINE
  5
93
330
1F
100
AcDbEntity
  8
0
  6
Continuous
 62
     7
370
    25
100
AcDbPolyline
 90
       22
 70
   128
 43
0.0
 10
-18.5809956499
 20
-47.1087731548
 10
-18.4669221219
 20
-47.0390208846
 10
-18.0473783003
 20
-46.7038450811
 10
-17.6887169117
 20
-46.281182623
 10
-17.3957882361
 20
-45.7767492948
 10
-17.1725536313
 20
-45.1973666919
 10
-17.0220319625
 20
-44.5508699701
 10
-16.9462587769
 20
-43.8460018886
 10
-16.9462587769
 20
-43.0922945789
 10
-17.0220319625
 20
-42.2999406395
 10
-17.1725536313
 20
-41.4796552981
 10
-17.3957882361
 20
-40.6425315067
 10
-17.6887169117
 20
-39.7998899286
 10
-18.0473783003
 20
-38.9631258456
 10
-18.4669221219
 20
-38.1435550564
 10
-18.941674766
 20
-37.35226085
 10
-19.4652160176
 20
-36.5999441231
 10
-20.0304658793
 20
-35.8967786689
 10
-20.6297803165
 20
-35.2522735937
 10
-21.2550546295
 20
-34.6751447232
 10
-21.8978330558
 20
-34.1731967353
 10
-22.54942312
 20
-33.7532176153
  0
LWPOLYLINE
  5
94
330
1F
100
AcDbEntity
  8
0
  6
Continuous
 62
     7
370
    25
100
AcDbPolyline
 90
        3
 70
   128
 43
0.0
 10
-16.0138384448
 20
-29.1299878718
 10
-15.419007982
 20
-28.7872766439
 10
-15.0503518077
 20
-28.5742201111
  0
LWPOLYLINE
  5
95
330
1F
100
AcDbEntity
  8
0
  6
Continuous
 62
     7
370
    25
100
AcDbPolyline
 90
        4
 70
   128
 43
0.0
 10
56.918308525
 20
12.9731402671
 10
56.8984883933
 20
12.9619269566
 10
56.1749578111
 20
12.5432716
 10
55.833701135
 20
12.3456934307
  0
LWPOLYLINE
  5
96
330
1F
100
AcDbEntity
  8
0
  6
Continuous
 62
     7
370
    25
100
AcDbPolyline
 90
       45
 70
   128
 43
0.0
 10
-33.9597377381
 20
-29.967279742
 10
-34.6036480771
 20
-30.2717783182
 10
-35.3074761226
 20
-30.5205802786
 10
-35.9928184437
 20
-30.6732124546
 10
-36.651909838
 20
-30.7279454627
 10
-37.2772825366
 20
-30.6841591559
 10
-37.861850817
 20
-30.5423496507
 10
-38.398991287
 20
-30.3041237055
 10
-38.8826179304
 20
-29.9721805152
 10
-39.3072510642
 20
-29.550281129
 10
-39.6680794252
 20
-29.0432058355
 10
-39.9610146839
 20
-28.4567000004
 10
-40.1827377668
 20
-27.797408969
 10
-40.3307364628
 20
-27.0728027724
 10
-40.4033338875
 20
-26.2910914881
 10
-40.399707483
 20
-25.4611322174
 10
-40.3198983381
 20
-24.5923287305
 10
-40.1648107221
 20
-23.6945249181
 10
-39.9362018398
 20
-22.777893256
 10
-39.6366619211
 20
-21.8528195473
 10
-39.2695848731
 20
-20.9297852468
 10
-38.8391298252
 20
-20.0192487018
 10
-38.3501740053
 20
-19.1315266554
 10
-37.8082574781
 20
-18.2766773529
 10
-37.2195203745
 20
-17.4643865785
 10
-36.590633321
 20
-16.7038579114
 10
-35.9287218593
 20
-16.0037084451
 10
-35.2412857108
 20
-15.371871153
 10
-34.5361138016
 20
-14.815505004
 10
-33.8211960112
 20
-14.3409138488
 10
-33.104632644
 20
-13.953474995
 10
-32.3945426491
 20
-13.6575782795
 10
-31.69897163
 20
-13.4565763304
 10
-31.0258006843
 20
-13.35274658
 10
-30.3826571077
 20
-13.3472654609
 10
-29.7768279739
 20
-13.4401950765
 10
-29.2151775692
 20
-13.6304824969
 10
-28.7040696169
 20
-13.9159716897
 10
-28.2492951746
 20
-14.2934279483
 10
-27.8560070182
 20
-14.7585745424
 10
-27.5286612598
 20
-15.3061411753
 10
-27.2709668576
 20
-15.9299236982
 10
-27.0858435921
 20
-16.6228544059
 10
-26.975388984
 20
-17.3770821166
 10
-26.9467645354
 20
-17.8200189428
  0
LWPOLYLINE
  5
97
330
1F
100
AcDbEntity
  8
0
  6
Continuous
 62
     7
370
    25
100
AcDbPolyline
 90
       31
 70
   128
 43
0.0
 10
-31.1589115201
 20
-12.4876506261
 10
-31.4602415994
 20
-12.3344346194
 10
-32.0218920042
 20
-12.1441471989
 10
-32.6277211379
 20
-12.0512175834
 10
-33.2708647146
 20
-12.0566987025
 10
-33.9440356603
 20
-12.1605284529
 10
-34.6396066794
 20
-12.361530402
 10
-35.3496966743
 20
-12.6574271175
 10
-36.0662600415
 20
-13.0448659713
 10
-36.7811778318
 20
-13.5194571265
 10
-37.486349741
 20
-14.0758232755
 10
-38.1737858896
 20
-14.7076605676
 10
-38.8356973513
 20
-15.4078100339
 10
-39.4645844048
 20
-16.168338701
 10
-40.0533215084
 20
-16.9806294753
 10
-40.5952380356
 20
-17.8354787778
 10
-41.0841938555
 20
-18.7232008243
 10
-41.5146489033
 20
-19.6337373693
 10
-41.8817259514
 20
-20.5567716698
 10
-42.1812658701
 20
-21.4818453785
 10
-42.4098747524
 20
-22.3984770406
 10
-42.5649623683
 20
-23.296280853
 10
-42.6447715133
 20
-24.1650843399
 10
-42.6483979177
 20
-24.9950436106
 10
-42.575800493
 20
-25.7767548948
 10
-42.4278017971
 20
-26.5013610915
 10
-42.2060787141
 20
-27.1606521228
 10
-41.9131434554
 20
-27.747157958
 10
-41.5523150944
 20
-28.2542332515
 10
-41.1276819607
 20
-28.6761326377
 10
-40.6831374485
 20
-28.9858814545
  0
LWPOLYLINE
  5
98
330
1F
100
AcDbEntity
  8
0
  6
Continuous
 62
     7
370
    25
100
AcDbPolyline
 90
       27
 70
   128
 43
0.0
 10
69.6957677556
 20
19.4987975761
 10
70.3473578198
 20
19.0788184562
 10
70.9901362461
 20
18.5768704683
 10
71.6154105591
 20
17.9997415978
 10
72.2147249963
 20
17.3552365226
 10
72.7799748581
 20
16.6520710684
 10
73.3035161096
 20
15.8997543415
 10
73.7782687538
 20
15.1084601351
 10
74.1978125754
 20
14.2888893459
 10
74.556473964
 20
13.4521252628
 10
74.8494026395
 20
12.6094836847
 10
75.0726372443
 20
11.7723598934
 10
75.2231589132
 20
10.952074552
 10
75.2989320988
 20
10.1597206125
 10
75.2989320988
 20
9.4060133029
 10
75.2231589132
 20
8.7011452214
 10
75.0726372443
 20
8.0546484996
 10
74.8494026395
 20
7.4752658967
 10
74.556473964
 20
6.9708325685
 10
74.1978125754
 20
6.5481701103
 10
73.7782687538
 20
6.2129943069
 10
73.3035161096
 20
5.969837836
 10
72.7799748581
 20
5.8219889717
 10
72.2147249963
 20
5.7714471163
 10
71.6154105591
 20
5.8188957617
 10
70.9901362461
 20
5.9636932463
 10
70.9070029784
 20
5.9897017919
  0
LWPOLYLINE
  5
99
330
1F
100
AcDbEntity
  8
0
  6
Continuous
 62
     7
370
    25
100
AcDbPolyline
 90
       13
 70
   128
 43
0.0
 10
64.2175912991
 20
17.5902831011
 10
64.3188982669
 20
17.980361264
 10
64.5421328717
 20
18.5597438669
 10
64.8350615473
 20
19.0641771951
 10
65.1937229359
 20
19.4868396533
 10
65.6132667575
 20
19.8220154567
 10
66.0880194016
 20
20.0651719276
 10
66.6115606532
 20
20.2130207919
 10
67.1768105149
 20
20.2635626473
 10
67.7761249521
 20
20.2161140019
 10
68.4013992651
 20
20.0713165172
 10
69.0441776914
 20
19.8311283309
 10
69.6957677556
 20
19.4987975761
  0
LWPOLYLINE
  5
9B
330
1F
100
AcDbEntity
  8
0
  6
Continuous
 62
     7
370
    25
100
AcDbPolyline
 90
       22
 70
   128
 43
0.0
 10
75.909259256
 20
7.4392899142
 10
76.023332784
 20
7.5090421844
 10
76.4428766056
 20
7.8442179879
 10
76.8015379942
 20
8.266880446
 10
77.0944666698
 20
8.7713137742
 10
77.3177012746
 20
9.3506963771
 10
77.4682229434
 20
9.9971930989
 10
77.543996129
 20
10.7020611804
 10
77.543996129
 20
11.4557684901
 10
77.4682229434
 20
12.2481224295
 10
77.3177012746
 20
13.0684077709
 10
77.0944666698
 20
13.9055315623
 10
76.8015379942
 20
14.7481731404
 10
76.4428766056
 20
15.5849372234
 10
76.023332784
 20
16.4045080126
 10
75.5485801399
 20
17.195802219
 10
75.0250388883
 20
17.9481189459
 10
74.4597890266
 20
18.6512844001
 10
73.8604745894
 20
19.2957894753
 10
73.2352002764
 20
19.8729183458
 10
72.5924218501
 20
20.3748663337
 10
71.9408317859
 20
20.7948454537
  0
LWPOLYLINE
  5
9C
330
1F
100
AcDbEntity
  8
0
  6
Continuous
 62
     7
370
    25
100
AcDbPolyline
 90
       45
 70
   128
 43
0.0
 10
37.8919524188
 20
11.5113565659
 10
37.4501814707
 20
11.2939439718
 10
36.7423859397
 20
11.0170272209
 10
36.0507215278
 20
10.8355542542
 10
35.3830250691
 20
10.7515812332
 10
34.7468618313
 20
10.7660596055
 10
34.1494397981
 20
10.8788253255
 10
33.5975279998
 20
11.0886007125
 10
33.0973798176
 20
11.3930089276
 10
32.6546621304
 20
11.788600904
 10
32.2743911063
 20
12.2708944266
 10
31.960875368
 20
12.834424917
 10
31.7176671742
 20
13.4728073496
 10
31.5475221708
 20
14.1788085964
 10
31.4523681688
 20
14.9444293811
 10
31.4332833009
 20
15.7609949144
 10
31.4904838064
 20
16.6192531824
 10
31.6233215807
 20
17.5094797761
 10
31.8302915186
 20
18.4215880723
 10
32.1090485683
 20
19.3452435197
 10
32.4564343007
 20
20.2699807329
 10
32.8685126969
 20
21.1853220699
 10
33.3406147439
 20
22.0808963475
 10
33.8673913369
 20
22.9465563513
 10
34.4428738865
 20
23.7724938076
 10
35.0605419457
 20
24.5493505149
 10
35.7133970883
 20
25.2683243764
 10
36.3940422049
 20
25.9212691308
 10
37.0947653142
 20
26.5007866533
 10
37.8076269435
 20
27.0003107788
 10
38.5245500856
 20
27.4141816992
 10
39.2374117149
 20
27.7377100918
 10
39.9381348242
 20
27.9672302504
 10
40.6187799408
 20
28.1001416202
 10
41.2716350834
 20
28.134938262
 10
41.8893031426
 20
28.071225916
 10
42.4647856922
 20
27.9097264686
 10
42.9915622852
 20
27.6522697731
 10
43.4636643322
 20
27.3017729167
 10
43.8757427284
 20
26.8622071687
 10
44.2231284608
 20
26.3385529849
 10
44.5018855104
 20
25.7367435763
 10
44.7088554484
 20
25.063597684
 10
44.8416932227
 20
24.3267423199
 10
44.8953293552
 20
23.65230823
  0
LWPOLYLINE
  5
9D
330
1F
100
AcDbEntity
  8
0
  6
Continuous
 62
     7
370
    25
100
AcDbPolyline
 90
       31
 70
   128
 43
0.0
 10
40.6831374485
 20
28.9858814545
 10
40.219721662
 20
29.2057743461
 10
39.6442391123
 20
29.3672737935
 10
39.0265710532
 20
29.4309861395
 10
38.3737159105
 20
29.3961894977
 10
37.6930707939
 20
29.263278128
 10
36.9923476846
 20
29.0337579693
 10
36.2794860553
 20
28.7102295767
 10
35.5625629132
 20
28.2963586563
 10
34.849701284
 20
27.7968345309
 10
34.1489781746
 20
27.2173170083
 10
33.4683330581
 20
26.5643722539
 10
32.8154779154
 20
25.8453983924
 10
32.1978098563
 20
25.0685416851
 10
31.6223273066
 20
24.2426042288
 10
31.0955507136
 20
23.376944225
 10
30.6234486666
 20
22.4813699474
 10
30.2113702705
 20
21.5660286105
 10
29.863984538
 20
20.6412913972
 10
29.5852274884
 20
19.7176359498
 10
29.3782575504
 20
18.8055276536
 10
29.2454197761
 20
17.9153010599
 10
29.1882192706
 20
17.0570427919
 10
29.2073041385
 20
16.2404772587
 10
29.3024581406
 20
15.4748564739
 10
29.4726031439
 20
14.7688552271
 10
29.7158113378
 20
14.1304727945
 10
30.029327076
 20
13.5669423041
 10
30.4095981001
 20
13.0846487815
 10
30.8523157874
 20
12.6890568051
 10
31.1589115201
 20
12.4876506261
  0
LWPOLYLINE
  5
9F
330
1F
100
AcDbEntity
  8
0
  6
Continuous
 62
     8
370
    25
100
AcDbPolyline
 90
       21
 70
   128
 43
0.0
 10
-21.9763492174
 20
-48.1130078985
 10
-21.9190656057
 20
-48.078957355
 10
-21.5163519999
 20
-47.7686433609
 10
-21.1744543159
 20
-47.3701873724
 10
-20.8985553741
 20
-46.8896295759
 10
-20.6928375213
 20
-46.3342547379
 10
-20.5604192304
 20
-45.7124817748
 10
-20.5033078277
 20
-45.0337361309
 10
-20.5223690639
 20
-44.3083068982
 10
-20.61731399
 20
-43.5471908445
 10
-20.7867033378
 20
-42.7619257134
 10
-21.0279693373
 20
-41.9644153237
 10
-21.3374546421
 20
-41.16674912
 10
-21.7104677703
 20
-40.3810189089
 10
-22.1413542231
 20
-39.6191355594
 10
-22.6235822012
 20
-38.8926484466
 10
-23.1498416199
 20
-38.2125703744
 10
-23.7121549229
 20
-37.5892106333
 10
-24.3019980138
 20
-37.0320187214
 10
-24.9104294724
 20
-36.5494411003
 10
-25.5282260982
 20
-36.1487931547
  0
LWPOLYLINE
  5
A0
330
1F
100
AcDbEntity
  8
0
  6
Continuous
 62
     8
370
    25
100
AcDbPolyline
 90
       19
 70
   128
 43
0.0
 10
-19.2294599613
 20
-33.1329022181
 10
-18.643380643
 20
-33.5155972929
 10
-18.0673293043
 20
-33.9804617208
 10
-17.5111623434
 20
-34.5195415425
 10
-16.9843959311
 20
-35.123612953
 10
-16.4960431868
 20
-35.7823401228
 10
-16.0544599613
 20
-36.4844520475
 10
-15.6672018662
 20
-37.2179353973
 10
-15.3408949947
 20
-37.9702400688
 10
-15.0811225478
 20
-38.7284939204
 10
-14.8923293043
 20
-39.4797230187
 10
-14.7777455688
 20
-40.2110736253
 10
-14.7393319008
 20
-40.9100321286
 10
-14.7777455688
 20
-41.564639155
 10
-14.8923293043
 20
-42.1636941966
 10
-15.0811225478
 20
-42.6969472555
 10
-15.3408949947
 20
-43.1552742242
 10
-15.6672018662
 20
-43.5308330012
 10
-16.0535905856
 20
-43.8166953535
  0
LWPOLYLINE
  5
A3
330
1F
100
AcDbEntity
  8
0
  6
Continuous
 62
     8
370
    25
100
AcDbPolyline
 90
       20
 70
   128
 43
0.0
 10
69.5505465731
 20
5.6015206696
 10
69.5508045969
 20
5.6016696478
 10
69.9380626921
 20
5.8880343182
 10
70.2643695636
 20
6.2635930951
 10
70.5241420104
 20
6.7219200638
 10
70.712935254
 20
7.2551731228
 10
70.8275189895
 20
7.8542281643
 10
70.8659326575
 20
8.5088351907
 10
70.8275189895
 20
9.207793694
 10
70.712935254
 20
9.9391443007
 10
70.5241420104
 20
10.6903733989
 10
70.2643695636
 20
11.4486272505
 10
69.9380626921
 20
12.200931922
 10
69.5508045969
 20
12.9344152719
 10
69.1092213715
 20
13.6365271965
 10
68.6208686272
 20
14.2952543663
 10
68.0941022149
 20
14.8993257768
 10
67.537935254
 20
15.4384055985
 10
66.9618839153
 20
15.9032700264
 10
66.3758045969
 20
16.2859651012
  0
LWPOLYLINE
  5
A4
330
1F
100
AcDbEntity
  8
0
  6
Continuous
 62
     8
370
    25
100
AcDbPolyline
 90
       23
 70
   128
 43
0.0
 10
-22.6792977938
 20
-23.1019042838
 10
-22.7191034693
 20
-23.0797115837
 10
-23.1003816931
 20
-22.9353755601
 10
-23.5253676153
 20
-22.88775192
 10
-23.984099926
 20
-22.9379569211
 10
-24.4658263286
 20
-23.0848138008
 10
-24.9592555646
 20
-23.3248803584
 10
-25.4528220708
 20
-23.6525296371
 10
-25.9349570667
 20
-24.0600818155
 10
-26.3943597167
 20
-24.5379842161
 10
-26.8202620119
 20
-25.0750352117
 10
-27.2026811636
 20
-25.658646782
 10
-27.532653591
 20
-26.2751395665
 10
-27.80244502
 20
-26.9100634968
 10
-28.0057317682
 20
-27.5485364942
 10
-28.1377489666
 20
-28.1755932928
 10
-28.1954022438
 20
-28.7765362126
 10
-28.177340256
 20
-29.337279661
 10
-28.0839863608
 20
-29.8446802867
 10
-27.9175286944
 20
-30.2868450492
 10
-27.6818688835
 20
-30.6534099812
 10
-27.3825305942
 20
-30.9357831114
 10
-27.2509262394
 20
-31.0210550814
  0
LWPOLYLINE
  5
A5
330
1F
100
AcDbEntity
  8
0
  6
Continuous
 62
     8
370
    25
100
AcDbPolyline
 90
       22
 70
   128
 43
0.0
 10
49.1627511748
 20
18.3716277968
 10
48.9338401834
 20
18.479619737
 10
48.5290052567
 20
18.5747375251
 10
48.0854472491
 20
18.572285502
 10
47.6135627845
 20
18.472321141
 10
47.1244124347
 20
18.277187522
 10
46.6294614693
 20
17.9914584116
 10
46.1403111195
 20
17.621831058
 10
45.6684266549
 20
17.1769692131
 10
45.2248686473
 20
16.6673000615
 10
44.8200337206
 20
16.1047698161
 10
44.4634108623
 20
15.5025637091
 10
44.1633590099
 20
14.8747969413
 10
43.9269111245
 20
14.2361838336
 10
43.7596093443
 20
13.6016929359
 10
43.665375081
 20
12.9861961773
 10
43.646417106
 20
12.4041202799
 10
43.7031797781
 20
11.8691086095
 10
43.8343326284
 20
11.3937013863
 10
44.0368015453
 20
10.9890417525
 10
44.3058408289
 20
10.6646145871
 10
44.5911227292
 20
10.4524769992
  0
LINE
  5
A8
330
1F
100
AcDbEntity
  8
0
  6
Continuous
 62
     7
370
    25
100
AcDbLine
 10
-26.5178505902
 20
-33.3602474645
 30
0.0
 11
-28.7629146204
 21
-34.6562953421
 31
0.0
  0
LINE
  5
A9
330
1F
100
AcDbEntity
  8
0
  6
Continuous
 62
     7
370
    25
100
AcDbLine
 10
-20.8260596801
 20
-48.4048210324
 30
0.0
 11
-18.5809956499
 21
-47.1087731548
 31
0.0
  0
LINE
  5
AA
330
1F
100
AcDbEntity
  8
0
  6
Continuous
 62
     7
370
    25
100
AcDbLine
 10
-16.0140711145
 20
-29.1295820948
 30
0.0
 11
-22.4042019374
 21
-32.8185260975
 31
0.0
  0
LINE
  5
AB
330
1F
100
AcDbEntity
  8
0
  6
Continuous
 62
     7
370
    25
100
AcDbLine
 10
55.8330222084
 20
12.3468620296
 30
0.0
 11
-15.0507759628
 21
-28.5734836406
 31
0.0
  0
LINE
  5
AC
330
1F
100
AcDbEntity
  8
0
  6
Continuous
 62
     7
370
    25
100
AcDbLine
 10
63.2010626208
 20
16.6003412218
 30
0.0
 11
56.9182011831
 21
12.9733225171
 31
0.0
  0
LINE
  5
AD
330
1F
100
AcDbEntity
  8
0
  6
Continuous
 62
     7
370
    25
100
AcDbLine
 10
-16.0547179852
 20
-43.8173466497
 30
0.0
 11
69.5505465731
 21
5.6015206696
 31
0.0
  0
LINE
  5
AE
330
1F
100
AcDbEntity
  8
0
  6
Continuous
 62
     7
370
    25
100
AcDbLine
 10
-27.2509262394
 20
-31.0210550814
 30
0.0
 11
-23.5048602409
 21
-33.183612951
 31
0.0
  0
LINE
  5
AF
330
1F
100
AcDbEntity
  8
0
  6
Continuous
 62
     7
370
    25
100
AcDbLine
 10
-14.1259966716
 20
-28.0396199194
 30
0.0
 11
-22.6792977938
 21
-23.1019042838
 31
0.0
  0
LINE
  5
B0
330
1F
100
AcDbEntity
  8
0
  6
Continuous
 62
     7
370
    25
100
AcDbLine
 10
-40.6831374485
 20
-28.9858814545
 30
0.0
 11
-38.4380734182
 21
-30.281929332
 31
0.0
  0
LINE
  5
B1
330
1F
100
AcDbEntity
  8
0
  6
Continuous
 62
     7
370
    25
100
AcDbLine
 10
-28.9138474898
 20
-13.7836985036
 30
0.0
 11
-31.1589115201
 21
-12.4876506261
 31
0.0
  0
LINE
  5
B2
330
1F
100
AcDbEntity
  8
0
  6
Continuous
 62
     7
370
    25
100
AcDbLine
 10
44.5911227292
 20
10.4524769992
 30
0.0
 11
48.5713091278
 21
8.1547642995
 31
0.0
  0
LINE
  5
B3
330
1F
100
AcDbEntity
  8
0
  6
Continuous
 62
     7
370
    25
100
AcDbLine
 10
57.716052297
 20
13.4339121612
 30
0.0
 11
49.1627511748
 21
18.3716277968
 31
0.0
  0
LINE
  5
B4
330
1F
100
AcDbEntity
  8
0
  6
Continuous
 62
     7
370
    25
100
AcDbLine
 10
67.9724043157
 20
21.1878156045
 30
0.0
 11
65.7273402855
 21
19.8917677269
 31
0.0
  0
LINE
  5
B5
330
1F
100
AcDbEntity
  8
0
  6
Continuous
 62
     7
370
    25
100
AcDbLine
 10
73.6641952258
 20
6.1432420366
 30
0.0
 11
75.909259256
 21
7.4392899142
 31
0.0
  0
LINE
  5
B6
330
1F
100
AcDbEntity
  8
0
  6
Continuous
 62
     7
370
    25
100
AcDbLine
 10
31.1589115201
 20
12.4876506261
 30
0.0
 11
33.4039755504
 21
11.1916027486
 31
0.0
  0
LINE
  5
B7
330
1F
100
AcDbEntity
  8
0
  6
Continuous
 62
     7
370
    25
100
AcDbLine
 10
42.9282014787
 20
27.689833577
 30
0.0
 11
40.6831374485
 21
28.9858814545
 31
0.0
  0
ARC
  5
B8
330
1F
100
AcDbEntity
  8
0
  6
Continuous
 62
     7
370
    25
100
AcDbCircle
 10
-23.6623829242
 20
-30.9110376672
 30
0.0
 40
2.281679440280459
100
AcDbArc
 50
265.7401134202
 51
303.3913882852
  0
ARC
  5
B9
330
1F
100
AcDbEntity
  8
0
  6
Continuous
 62
     7
370
    25
100
AcDbCircle
 10
70.8087594393
 20
3.6938977706
 30
0.0
 40
2.281811169922282
100
AcDbArc
 50
85.7411625045
 51
123.3683748866
  0
ARC
  5
BA
330
1F
100
AcDbEntity
  8
0
  6
Continuous
 62
     7
370
    25
100
AcDbCircle
 10
71.4944381801
 20
14.6487642019
 30
0.0
 40
6.84363557341513
100
AcDbArc
 50
25.6942802658
 51
99.1817694388
  0
ARC
  5
BB
330
1F
100
AcDbEntity
  8
0
  6
Continuous
 62
     7
370
    25
100
AcDbCircle
 10
72.0259085673
 20
13.7596240088
 30
0.0
 40
6.828600311584561
100
AcDbArc
 50
320.5835411439
 51
34.3836850188
  0
ARC
  5
BC
330
1F
100
AcDbEntity
  8
0
  6
Continuous
 62
     7
370
    25
100
AcDbCircle
 10
-24.8611476933
 20
-36.8641160763
 30
0.0
 40
3.875791498118141
100
AcDbArc
 50
53.3837706539
 51
115.305770917
  0
ARC
  5
BD
330
1F
100
AcDbEntity
  8
0
  6
Continuous
 62
     7
370
    25
100
AcDbCircle
 10
69.6291072126
 20
17.6839469927
 30
0.0
 40
3.875791498118148
100
AcDbArc
 50
53.3837706539
 51
115.305770917
  0
ARC
  5
BE
330
1F
100
AcDbEntity
  8
0
  6
Continuous
 62
     8
370
    25
100
AcDbCircle
 10
-27.5950799365
 20
-38.8945753714
 30
0.0
 40
3.436743337884939
100
AcDbArc
 50
53.0298440293
 51
115.5951647886
  0
ARC
  5
BF
330
1F
100
AcDbEntity
  8
0
  6
Continuous
 62
     8
370
    25
100
AcDbCircle
 10
-21.0911167991
 20
-35.7459486888
 30
0.0
 40
3.208391815198314
100
AcDbArc
 50
54.5321461421
 51
114.1643715774
  0
ARC
  5
C0
330
1F
100
AcDbEntity
  8
0
  6
Continuous
 62
     8
370
    25
100
AcDbCircle
 10
64.5141008863
 20
13.6727913164
 30
0.0
 40
3.208522702973508
100
AcDbArc
 50
54.5327836208
 51
114.1567579501
  0
ARC
  5
C1
330
1F
100
AcDbEntity
  8
0
  6
Continuous
 62
     8
370
    25
100
AcDbCircle
 10
67.4351766635
 20
11.8092131893
 30
0.0
 40
10.18435602733982
100
AcDbArc
 50
352.0256805395
 51
59.0389588076
  0
ARC
  5
C2
330
1F
100
AcDbEntity
  8
0
  6
Continuous
 62
     8
370
    25
100
AcDbCircle
 10
69.9858299627
 20
16.0243668844
 30
0.0
 40
5.257625472425016
100
AcDbArc
 50
59.2429846975
 51
75.0837516476
  0
ENDSEC
  0
SECTION
  2
OBJECTS
  0
DICTIONARY
  5
C
330
0
100
AcDbDictionary
281
     1
  3
ACAD_GROUP
350
D
  3
ACAD_LAYOUT
350
1A
  3
ACAD_MLINESTYLE
350
17
  3
ACAD_PLOTSETTINGS
350
19
  3
ACAD_PLOTSTYLENAME
350
E
  3
ACAD_SCALELIST
350
47
  0
DICTIONARY
  5
D
102
{ACAD_REACTORS
330
C
102
}
330
C
100
AcDbDictionary
281
     1
  0
DICTIONARY
  5
1A
102
{ACAD_REACTORS
330
C
102
}
330
C
100
AcDbDictionary
281
     1
  3
Layout1
350
1E
  3
Layout2
350
26
  3
Model
350
22
  0
DICTIONARY
  5
17
102
{ACAD_REACTORS
330
C
102
}
330
C
100
AcDbDictionary
281
     1
  3
Standard
350
18
  0
DICTIONARY
  5
19
102
{ACAD_REACTORS
330
C
102
}
330
C
100
AcDbDictionary
281
     1
  0
ACDBDICTIONARYWDFLT
  5
E
102
{ACAD_REACTORS
330
C
102
}
330
C
100
AcDbDictionary
281
     1
  3
Normal
350
F
100
AcDbDictionaryWithDefault
340
F
  0
DICTIONARY
  5
47
102
{ACAD_REACTORS
330
C
102
}
330
C
100
AcDbDictionary
281
     1
  3
A0
350
48
  3
A1
350
49
  3
A2
350
4A
  3
A3
350
4B
  3
A4
350
4C
  3
A5
350
4D
  3
A6
350
4E
  3
A7
350
4F
  3
A8
350
50
  3
A9
350
51
  3
B0
350
52
  3
B1
350
53
  3
B2
350
54
  3
B3
350
55
  3
B4
350
56
  3
B5
350
57
  3
B6
350
58
  3
B7
350
59
  3
B8
350
5A
  3
B9
350
5B
  3
C0
350
5C
  3
C1
350
5D
  3
C2
350
5E
  3
C3
350
5F
  3
C4
350
60
  3
C5
350
61
  3
C6
350
62
  3
C7
350
63
  3
C8
350
64
  3
C9
350
65
  3
D0
350
66
  3
D1
350
67
  3
D2
350
68
  0
LAYOUT
  5
1E
102
{ACAD_REACTORS
330
1A
102
}
330
1A
100
AcDbPlotSettings
  1

  2
none_device
  4

  6

 40
0.0
 41
0.0
 42
0.0
 43
0.0
 44
0.0
 45
0.0
 46
0.0
 47
0.0
 48
0.0
 49
0.0
140
0.0
141
0.0
142
1.0
143
1.0
 70
   688
 72
     1
 73
     0
 74
     5
  7

 75
    16
147
1.0
148
0.0
149
0.0
100
AcDbLayout
  1
Layout1
 70
     1
 71
     1
 10
0.0
 20
0.0
 11
420.0
 21
297.0
 12
0.0
 22
0.0
 32
0.0
 14
1.0000000000E+20
 24
1.0000000000E+20
 34
1.0000000000E+20
 15
-1.0000000000E+20
 25
-1.0000000000E+20
 35
-1.0000000000E+20
146
0.0
 13
0.0
 23
0.0
 33
0.0
 16
1.0
 26
0.0
 36
0.0
 17
0.0
 27
1.0
 37
0.0
 76
     0
330
1B
  0
LAYOUT
  5
26
102
{ACAD_REACTORS
330
1A
102
}
330
1A
100
AcDbPlotSettings
  1

  2
none_device
  4

  6

 40
0.0
 41
0.0
 42
0.0
 43
0.0
 44
0.0
 45
0.0
 46
0.0
 47
0.0
 48
0.0
 49
0.0
140
0.0
141
0.0
142
1.0
143
1.0
 70
   688
 72
     1
 73
     0
 74
     5
  7

 75
    16
147
1.0
148
0.0
149
0.0
100
AcDbLayout
  1
Layout2
 70
     1
 71
     2
 10
0.0
 20
0.0
 11
0.0
 21
0.0
 12
0.0
 22
0.0
 32
0.0
 14
0.0
 24
0.0
 34
0.0
 15
0.0
 25
0.0
 35
0.0
146
0.0
 13
0.0
 23
0.0
 33
0.0
 16
1.0
 26
0.0
 36
0.0
 17
0.0
 27
1.0
 37
0.0
 76
     0
330
23
  0
LAYOUT
  5
22
102
{ACAD_REACTORS
330
1A
102
}
330
1A
100
AcDbPlotSettings
  1

  2
none_device
  4
ANSI_A_(11.00_x_8.50_Inches)
  6

 40
6.35
 41
19.05
 42
6.35000508
 43
19.05000254
 44
279.4
 45
215.9
 46
92.137701423
 47
110.9290225058
 48
0.0
 49
0.0
140
0.0
141
0.0
142
0.0896274854
143
1.0
 70
  1696
 72
     0
 73
     0
 74
     0
  7

 75
     0
147
0.0179189148
148
-1300.4909072572
149
0.0
100
AcDbLayout
  1
Model
 70
     1
 71
     0
 10
0.0
 20
0.0
 11
420.0
 21
297.0
 12
0.0
 22
0.0
 32
0.0
 14
-42.6483979177
 24
-48.7840762579
 34
0.0
 15
78.8545088789
 25
29.4309861395
 35
0.0
146
0.0
 13
0.0
 23
0.0
 33
0.0
 16
1.0
 26
0.0
 36
0.0
 17
0.0
 27
1.0
 37
0.0
 76
     0
330
1F
331
29
  0
MLINESTYLE
  5
18
102
{ACAD_REACTORS
330
17
102
}
330
17
100
AcDbMlineStyle
  2
Standard
 70
     0
  3

 62
   256
 51
90.0
 52
90.0
 71
     2
 49
0.5
 62
   256
  6
BYLAYER
 49
-0.5
 62
   256
  6
BYLAYER
  0
ACDBPLACEHOLDER
  5
F
102
{ACAD_REACTORS
330
E
102
}
330
E
  0
SCALE
  5
48
102
{ACAD_REACTORS
330
47
102
}
330
47
100
AcDbScale
 70
     0
300
1:1
140
1.0
141
1.0
290
     1
  0
SCALE
  5
49
102
{ACAD_REACTORS
330
47
102
}
330
47
100
AcDbScale
 70
     0
300
1:2
140
1.0
141
2.0
290
     0
  0
SCALE
  5
4A
102
{ACAD_REACTORS
330
47
102
}
330
47
100
AcDbScale
 70
     0
300
1:4
140
1.0
141
4.0
290
     0
  0
SCALE
  5
4B
102
{ACAD_REACTORS
330
47
102
}
330
47
100
AcDbScale
 70
     0
300
1:5
140
1.0
141
5.0
290
     0
  0
SCALE
  5
4C
102
{ACAD_REACTORS
330
47
102
}
330
47
100
AcDbScale
 70
     0
300
1:8
140
1.0
141
8.0
290
     0
  0
SCALE
  5
4D
102
{ACAD_REACTORS
330
47
102
}
330
47
100
AcDbScale
 70
     0
300
1:10
140
1.0
141
10.0
290
     0
  0
SCALE
  5
4E
102
{ACAD_REACTORS
330
47
102
}
330
47
100
AcDbScale
 70
     0
300
1:16
140
1.0
141
16.0
290
     0
  0
SCALE
  5
4F
102
{ACAD_REACTORS
330
47
102
}
330
47
100
AcDbScale
 70
     0
300
1:20
140
1.0
141
20.0
290
     0
  0
SCALE
  5
50
102
{ACAD_REACTORS
330
47
102
}
330
47
100
AcDbScale
 70
     0
300
1:30
140
1.0
141
30.0
290
     0
  0
SCALE
  5
51
102
{ACAD_REACTORS
330
47
102
}
330
47
100
AcDbScale
 70
     0
300
1:40
140
1.0
141
40.0
290
     0
  0
SCALE
  5
52
102
{ACAD_REACTORS
330
47
102
}
330
47
100
AcDbScale
 70
     0
300
1:50
140
1.0
141
50.0
290
     0
  0
SCALE
  5
53
102
{ACAD_REACTORS
330
47
102
}
330
47
100
AcDbScale
 70
     0
300
1:100
140
1.0
141
100.0
290
     0
  0
SCALE
  5
54
102
{ACAD_REACTORS
330
47
102
}
330
47
100
AcDbScale
 70
     0
300
2:1
140
2.0
141
1.0
290
     0
  0
SCALE
  5
55
102
{ACAD_REACTORS
330
47
102
}
330
47
100
AcDbScale
 70
     0
300
4:1
140
4.0
141
1.0
290
     0
  0
SCALE
  5
56
102
{ACAD_REACTORS
330
47
102
}
330
47
100
AcDbScale
 70
     0
300
8:1
140
8.0
141
1.0
290
     0
  0
SCALE
  5
57
102
{ACAD_REACTORS
330
47
102
}
330
47
100
AcDbScale
 70
     0
300
10:1
140
10.0
141
1.0
290
     0
  0
SCALE
  5
58
102
{ACAD_REACTORS
330
47
102
}
330
47
100
AcDbScale
 70
     0
300
100:1
140
100.0
141
1.0
290
     0
  0
SCALE
  5
59
102
{ACAD_REACTORS
330
47
102
}
330
47
100
AcDbScale
 70
     0
300
1/128" = 1'-0"
140
0.0078125
141
12.0
290
     0
  0
SCALE
  5
5A
102
{ACAD_REACTORS
330
47
102
}
330
47
100
AcDbScale
 70
     0
300
1/64" = 1'-0"
140
0.015625
141
12.0
290
     0
  0
SCALE
  5
5B
102
{ACAD_REACTORS
330
47
102
}
330
47
100
AcDbScale
 70
     0
300
1/32" = 1'-0"
140
0.03125
141
12.0
290
     0
  0
SCALE
  5
5C
102
{ACAD_REACTORS
330
47
102
}
330
47
100
AcDbScale
 70
     0
300
1/16" = 1'-0"
140
0.0625
141
12.0
290
     0
  0
SCALE
  5
5D
102
{ACAD_REACTORS
330
47
102
}
330
47
100
AcDbScale
 70
     0
300
3/32" = 1'-0"
140
0.09375
141
12.0
290
     0
  0
SCALE
  5
5E
102
{ACAD_REACTORS
330
47
102
}
330
47
100
AcDbScale
 70
     0
300
1/8" = 1'-0"
140
0.125
141
12.0
290
     0
  0
SCALE
  5
5F
102
{ACAD_REACTORS
330
47
102
}
330
47
100
AcDbScale
 70
     0
300
3/16" = 1'-0"
140
0.1875
141
12.0
290
     0
  0
SCALE
  5
60
102
{ACAD_REACTORS
330
47
102
}
330
47
100
AcDbScale
 70
     0
300
1/4" = 1'-0"
140
0.25
141
12.0
290
     0
  0
SCALE
  5
61
102
{ACAD_REACTORS
330
47
102
}
330
47
100
AcDbScale
 70
     0
300
3/8" = 1'-0"
140
0.375
141
12.0
290
     0
  0
SCALE
  5
62
102
{ACAD_REACTORS
330
47
102
}
330
47
100
AcDbScale
 70
     0
300
1/2" = 1'-0"
140
0.5
141
12.0
290
     0
  0
SCALE
  5
63
102
{ACAD_REACTORS
330
47
102
}
330
47
100
AcDbScale
 70
     0
300
3/4" = 1'-0"
140
0.75
141
12.0
290
     0
  0
SCALE
  5
64
102
{ACAD_REACTORS
330
47
102
}
330
47
100
AcDbScale
 70
     0
300
1" = 1'-0"
140
1.0
141
12.0
290
     0
  0
SCALE
  5
65
102
{ACAD_REACTORS
330
47
102
}
330
47
100
AcDbScale
 70
     0
300
1-1/2" = 1'-0"
140
1.5
141
12.0
290
     0
  0
SCALE
  5
66
102
{ACAD_REACTORS
330
47
102
}
330
47
100
AcDbScale
 70
     0
300
3" = 1'-0"
140
3.0
141
12.0
290
     0
  0
SCALE
  5
67
102
{ACAD_REACTORS
330
47
102
}
330
47
100
AcDbScale
 70
     0
300
6" = 1'-0"
140
6.0
141
12.0
290
     0
  0
SCALE
  5
68
102
{ACAD_REACTORS
330
47
102
}
330
47
100
AcDbScale
 70
     0
300
1'-0" = 1'-0"
140
12.0
141
12.0
290
     0
  0
ENDSEC
  0
EOF
